999
"DXF R12 Output" (www.mydxf.blogspot.com)
 0 
SECTION
 2 
HEADER
 9 
$ACADVER
 1 
AC1009
 9 
$EXTMIN
 10 
 0 
 20 
 0 
 9 
$EXTMAX
 10 
 8.5 
 20 
 11 
 0 
ENDSEC
 0 
SECTION
 2 
ENTITIES
0
LINE
8
Layer 1
10
0.846666
20
317.647000
11
-0.846666
21
315.953000
0
LINE
8
Layer 1
10
0.000000
20
318.211000
11
0.000000
21
315.389000
0
LINE
8
Layer 1
10
2.257780
20
315.671000
11
1.128890
21
314.542110
0
LINE
8
Layer 1
10
1.693330
20
316.236000
11
0.564440
21
315.107110
0
LINE
8
Layer 1
10
1.128890
20
316.800000
11
0.000000
21
315.671110
0
LINE
8
0
10
9.073380
20
259.909000
11
10.780100
21
259.909000
0
LINE
8
0
10
10.780100
20
259.909000
11
10.780100
21
286.649000
0
LINE
8
0
10
10.780100
20
286.649000
11
9.073380
21
286.649000
0
LINE
8
0
10
9.073380
20
286.649000
11
9.073380
21
259.909000
0
LINE
8
0
10
17.344800
20
199.204000
11
3.401500
21
199.204000
0
LINE
8
0
10
3.401500
20
199.204000
11
3.338618
21
199.266879
0
LINE
8
0
10
3.338618
20
199.266879
11
3.338620
21
229.047000
0
LINE
8
0
10
3.338620
20
229.047000
11
0.203993
21
229.047000
0
LINE
8
0
10
0.203993
20
229.047000
11
0.141111
21
229.110000
0
LINE
8
0
10
0.141111
20
229.110000
11
0.141111
21
248.382000
0
LINE
8
0
10
0.141111
20
248.382000
11
0.203993
21
248.444882
0
LINE
8
0
10
0.203993
20
248.444882
11
3.338620
21
248.445000
0
LINE
8
0
10
3.338620
20
248.445000
11
3.338620
21
267.417000
0
LINE
8
0
10
3.338620
20
267.417000
11
0.203993
21
267.417000
0
LINE
8
0
10
0.203993
20
267.417000
11
0.141111
21
267.480000
0
LINE
8
0
10
0.141111
20
267.480000
11
0.141111
21
286.753000
0
LINE
8
0
10
0.141111
20
286.753000
11
0.203993
21
286.815882
0
LINE
8
0
10
0.203993
20
286.815882
11
3.338620
21
286.815000
0
LINE
8
0
10
3.338620
20
286.815000
11
3.338620
21
316.596000
0
LINE
8
0
10
3.338620
20
316.596000
11
3.401500
21
316.659000
0
LINE
8
0
10
3.401500
20
316.659000
11
17.344800
21
316.659000
0
LINE
8
0
10
17.344800
20
316.659000
11
17.407682
21
316.596110
0
LINE
8
0
10
17.407682
20
316.596110
11
17.407700
21
313.461000
0
LINE
8
0
10
17.407700
20
313.461000
11
36.379600
21
313.461000
0
LINE
8
0
10
36.379600
20
313.461000
11
36.379600
21
316.596000
0
LINE
8
0
10
36.379600
20
316.596000
11
36.442400
21
316.659000
0
LINE
8
0
10
36.442400
20
316.659000
11
50.385700
21
316.659000
0
LINE
8
0
10
50.385700
20
316.659000
11
50.448582
21
316.596110
0
LINE
8
0
10
50.448582
20
316.596110
11
50.448600
21
286.815000
0
LINE
8
0
10
50.448600
20
286.815000
11
53.583200
21
286.815000
0
LINE
8
0
10
53.583200
20
286.815000
11
53.646082
21
286.752118
0
LINE
8
0
10
53.646082
20
286.752118
11
53.646100
21
267.480000
0
LINE
8
0
10
53.646100
20
267.480000
11
53.583218
21
267.417115
0
LINE
8
0
10
53.583218
20
267.417115
11
50.448600
21
267.417000
0
LINE
8
0
10
50.448600
20
267.417000
11
50.448600
21
248.445000
0
LINE
8
0
10
50.448600
20
248.445000
11
53.583200
21
248.445000
0
LINE
8
0
10
53.583200
20
248.445000
11
53.646082
21
248.382118
0
LINE
8
0
10
53.646082
20
248.382118
11
53.646100
21
229.110000
0
LINE
8
0
10
53.646100
20
229.110000
11
53.583218
21
229.047121
0
LINE
8
0
10
53.583218
20
229.047121
11
50.448600
21
229.047000
0
LINE
8
0
10
50.448600
20
229.047000
11
50.448600
21
199.267000
0
LINE
8
0
10
50.448600
20
199.267000
11
50.385718
21
199.204121
0
LINE
8
0
10
50.385718
20
199.204121
11
36.442400
21
199.204000
0
LINE
8
0
10
36.442400
20
199.204000
11
36.379518
21
199.266879
0
LINE
8
0
10
36.379518
20
199.266879
11
36.379500
21
202.401000
0
LINE
8
0
10
36.379500
20
202.401000
11
17.407700
21
202.401000
0
LINE
8
0
10
17.407700
20
202.401000
11
17.407700
21
199.267000
0
LINE
8
0
10
17.407700
20
199.267000
11
17.344800
21
199.204000
0
LINE
8
0
10
32.220200
20
220.538000
11
32.220200
21
226.933000
0
LINE
8
0
10
32.220200
20
226.933000
11
29.022600
21
226.933000
0
LINE
8
0
10
29.022600
20
226.933000
11
29.022600
21
220.538000
0
LINE
8
0
10
29.022600
20
220.538000
11
32.220200
21
220.538000
0
LINE
8
0
10
24.764600
20
220.538000
11
24.764600
21
226.933000
0
LINE
8
0
10
24.764600
20
226.933000
11
21.567100
21
226.933000
0
LINE
8
0
10
21.567100
20
226.933000
11
21.567100
21
220.538000
0
LINE
8
0
10
21.567100
20
220.538000
11
24.764600
21
220.538000
0
LINE
8
0
10
17.516000
20
215.143000
11
17.516000
21
208.985000
0
LINE
8
0
10
17.516000
20
208.985000
11
12.182670
21
205.905790
0
LINE
8
0
10
12.182600
20
205.905000
11
6.849290
21
208.985000
0
LINE
8
0
10
6.849290
20
208.985000
11
6.849290
21
215.143000
0
LINE
8
0
10
6.849290
20
215.143000
11
12.182620
21
218.222210
0
LINE
8
0
10
12.182600
20
218.222000
11
17.515930
21
215.142790
0
LINE
8
0
10
36.715900
20
208.985000
11
42.049230
21
205.905790
0
LINE
8
0
10
42.049230
20
205.905790
11
47.382560
21
208.985000
0
LINE
8
0
10
47.382560
20
208.985000
11
47.382600
21
215.143000
0
LINE
8
0
10
47.382600
20
215.143000
11
42.049270
21
218.222210
0
LINE
8
0
10
42.049270
20
218.222210
11
36.715940
21
215.143000
0
LINE
8
0
10
36.715940
20
215.143000
11
36.715900
21
208.985000
0
LINE
8
0
10
29.249300
20
299.513000
11
34.582630
21
296.433800
0
LINE
8
0
10
34.582630
20
296.433800
11
39.915960
21
299.513000
0
LINE
8
0
10
39.915960
20
299.513000
11
39.915900
21
305.671000
0
LINE
8
0
10
39.915900
20
305.671000
11
34.582600
21
308.751000
0
LINE
8
0
10
34.582600
20
308.751000
11
29.249300
21
305.671000
0
LINE
8
0
10
29.249300
20
305.671000
11
29.249300
21
299.513000
0
LINE
8
0
10
14.316000
20
273.648000
11
19.649330
21
270.568800
0
LINE
8
0
10
19.649330
20
270.568800
11
24.982660
21
273.648000
0
LINE
8
0
10
24.982660
20
273.648000
11
24.982600
21
279.806000
0
LINE
8
0
10
24.982600
20
279.806000
11
19.649300
21
282.885000
0
LINE
8
0
10
19.649300
20
282.885000
11
14.316000
21
279.806000
0
LINE
8
0
10
14.316000
20
279.806000
11
14.316000
21
273.648000
0
LINE
8
0
10
21.782600
20
286.580000
11
27.115930
21
283.500800
0
LINE
8
0
10
27.115930
20
283.500800
11
32.449260
21
286.580000
0
LINE
8
0
10
32.449260
20
286.580000
11
32.449300
21
292.739000
0
LINE
8
0
10
32.449300
20
292.739000
11
27.115900
21
295.818000
0
LINE
8
0
10
27.115900
20
295.818000
11
21.782600
21
292.739000
0
LINE
8
0
10
21.782600
20
292.739000
11
21.782600
21
286.580000
0
LINE
8
0
10
14.316000
20
299.513000
11
19.649300
21
296.434000
0
LINE
8
0
10
19.649300
20
296.434000
11
24.982600
21
299.513000
0
LINE
8
0
10
24.982600
20
299.513000
11
24.982600
21
305.671000
0
LINE
8
0
10
24.982600
20
305.671000
11
19.649300
21
308.751000
0
LINE
8
0
10
19.649300
20
308.751000
11
14.316000
21
305.671000
0
LINE
8
0
10
14.316000
20
305.671000
11
14.316000
21
299.513000
0
LINE
8
0
10
36.715900
20
234.850000
11
42.049230
21
231.770800
0
LINE
8
0
10
42.049230
20
231.770800
11
47.382560
21
234.850000
0
LINE
8
0
10
47.382560
20
234.850000
11
47.382600
21
241.008000
0
LINE
8
0
10
47.382600
20
241.008000
11
42.049270
21
244.087200
0
LINE
8
0
10
42.049270
20
244.087200
11
36.715940
21
241.008000
0
LINE
8
0
10
36.715940
20
241.008000
11
36.715900
21
234.850000
0
LINE
8
0
10
36.715900
20
260.715000
11
42.049230
21
257.635800
0
LINE
8
0
10
42.049230
20
257.635800
11
47.382560
21
260.715000
0
LINE
8
0
10
47.382560
20
260.715000
11
47.382600
21
266.874000
0
LINE
8
0
10
47.382600
20
266.874000
11
42.049270
21
269.953200
0
LINE
8
0
10
42.049270
20
269.953200
11
36.715940
21
266.874000
0
LINE
8
0
10
36.715940
20
266.874000
11
36.715900
21
260.715000
0
LINE
8
0
10
21.782600
20
234.850000
11
27.115930
21
231.770800
0
LINE
8
0
10
27.115930
20
231.770800
11
32.449260
21
234.850000
0
LINE
8
0
10
32.449260
20
234.850000
11
32.449300
21
241.008000
0
LINE
8
0
10
32.449300
20
241.008000
11
27.115900
21
244.087000
0
LINE
8
0
10
27.115900
20
244.087000
11
21.782600
21
241.008000
0
LINE
8
0
10
21.782600
20
241.008000
11
21.782600
21
234.850000
0
LINE
8
0
10
29.249300
20
273.648000
11
34.582630
21
270.568800
0
LINE
8
0
10
34.582630
20
270.568800
11
39.915960
21
273.648000
0
LINE
8
0
10
39.915960
20
273.648000
11
39.915900
21
279.806000
0
LINE
8
0
10
39.915900
20
279.806000
11
34.582570
21
282.885200
0
LINE
8
0
10
34.582570
20
282.885200
11
29.249240
21
279.806000
0
LINE
8
0
10
29.249240
20
279.806000
11
29.249300
21
273.648000
0
LINE
8
0
10
36.715900
20
286.580000
11
42.049230
21
283.500800
0
LINE
8
0
10
42.049230
20
283.500800
11
47.382560
21
286.580000
0
LINE
8
0
10
47.382560
20
286.580000
11
47.382600
21
292.739000
0
LINE
8
0
10
47.382600
20
292.739000
11
42.049300
21
295.818000
0
LINE
8
0
10
42.049300
20
295.818000
11
36.715900
21
292.739000
0
LINE
8
0
10
36.715900
20
292.739000
11
36.715900
21
286.580000
0
LINE
8
0
10
14.316000
20
247.782000
11
19.649330
21
244.702800
0
LINE
8
0
10
19.649330
20
244.702800
11
24.982660
21
247.782000
0
LINE
8
0
10
24.982660
20
247.782000
11
24.982600
21
253.941000
0
LINE
8
0
10
24.982600
20
253.941000
11
19.649300
21
257.020000
0
LINE
8
0
10
19.649300
20
257.020000
11
14.316000
21
253.941000
0
LINE
8
0
10
14.316000
20
253.941000
11
14.316000
21
247.782000
0
LINE
8
0
10
21.782600
20
260.715000
11
27.115900
21
257.636000
0
LINE
8
0
10
27.115900
20
257.636000
11
32.449300
21
260.715000
0
LINE
8
0
10
32.449300
20
260.715000
11
32.449300
21
266.874000
0
LINE
8
0
10
32.449300
20
266.874000
11
27.115900
21
269.953000
0
LINE
8
0
10
27.115900
20
269.953000
11
21.782600
21
266.874000
0
LINE
8
0
10
21.782600
20
266.874000
11
21.782600
21
260.715000
0
LINE
8
0
10
29.249300
20
247.782000
11
34.582630
21
244.702800
0
LINE
8
0
10
34.582630
20
244.702800
11
39.915960
21
247.782000
0
LINE
8
0
10
39.915960
20
247.782000
11
39.915900
21
253.941000
0
LINE
8
0
10
39.915900
20
253.941000
11
34.582570
21
257.020200
0
LINE
8
0
10
34.582570
20
257.020200
11
29.249240
21
253.941000
0
LINE
8
0
10
29.249240
20
253.941000
11
29.249300
21
247.782000
0
LINE
8
0
10
6.849290
20
234.850000
11
12.182620
21
231.770800
0
LINE
8
0
10
12.182620
20
231.770800
11
17.515950
21
234.850000
0
LINE
8
0
10
17.515950
20
234.850000
11
17.516000
21
241.008000
0
LINE
8
0
10
17.516000
20
241.008000
11
12.182600
21
244.087000
0
LINE
8
0
10
12.182600
20
244.087000
11
6.849290
21
241.008000
0
LINE
8
0
10
6.849290
20
241.008000
11
6.849290
21
234.850000
0
LINE
8
0
10
21.782600
20
208.985000
11
27.115930
21
205.905790
0
LINE
8
0
10
27.115930
20
205.905790
11
32.449260
21
208.985000
0
LINE
8
0
10
32.449260
20
208.985000
11
32.449300
21
215.143000
0
LINE
8
0
10
32.449300
20
215.143000
11
27.115970
21
218.222210
0
LINE
8
0
10
27.115970
20
218.222210
11
21.782640
21
215.143000
0
LINE
8
0
10
21.782640
20
215.143000
11
21.782600
21
208.985000
 0 
ENDSEC
 0 
EOF