0
SECTION
2
HEADER
9
$INSUNITS
70
4
9
$ACADVER
1
AC1014
9
$HANDSEED
5
FFFF
0
ENDSEC
0
SECTION
2
TABLES
0
TABLE
2
VPORT
5
8
100
AcDbSymbolTable
0
ENDTAB
0
TABLE
2
LTYPE
5
5
100
AcDbSymbolTable
0
LTYPE
5
14
100
AcDbSymbolTableRecord
100
AcDbLinetypeTableRecord
2
BYBLOCK
70
0
0
LTYPE
5
15
100
AcDbSymbolTableRecord
100
AcDbLinetypeTableRecord
2
BYLAYER
70
0
0
ENDTAB
0
TABLE
2
LAYER
5
2
100
AcDbSymbolTable
70
2
0
LAYER
5
50
100
AcDbSymbolTableRecord
100
AcDbLayerTableRecord
2
0
70
0
6
CONTINUOUS
0
ENDTAB
0
TABLE
2
STYLE
5
3
100
AcDbSymbolTable
70
1
0
STYLE
5
11
100
AcDbSymbolTableRecord
100
AcDbTextStyleTableRecord
2
STANDARD
70
0
0
ENDTAB
0
TABLE
2
VIEW
5
6
100
AcDbSymbolTable
70
0
0
ENDTAB
0
TABLE
2
UCS
5
7
100
AcDbSymbolTable
70
0
0
ENDTAB
0
TABLE
2
APPID
5
9
100
AcDbSymbolTable
70
2
0
APPID
5
12
100
AcDbSymbolTableRecord
100
AcDbRegAppTableRecord
2
ACAD
70
0
0
ENDTAB
0
TABLE
2
DIMSTYLE
5
A
100
AcDbSymbolTable
70
1
0
ENDTAB
0
TABLE
2
BLOCK_RECORD
5
1
100
AcDbSymbolTable
70
1
0
BLOCK_RECORD
5
1F
100
AcDbSymbolTableRecord
100
AcDbBlockTableRecord
2
*MODEL_SPACE
0
BLOCK_RECORD
5
1B
100
AcDbSymbolTableRecord
100
AcDbBlockTableRecord
2
*PAPER_SPACE
0
ENDTAB
0
ENDSEC
0
SECTION
2
BLOCKS
0
BLOCK
5
20
100
AcDbEntity
100
AcDbBlockBegin
2
*MODEL_SPACE
0
ENDBLK
5
21
100
AcDbEntity
100
AcDbBlockEnd
0
BLOCK
5
1C
100
AcDbEntity
100
AcDbBlockBegin
2
*PAPER_SPACE
0
ENDBLK
5
1D
100
AcDbEntity
100
AcDbBlockEnd
0
ENDSEC
0
SECTION
2
ENTITIES
0
LWPOLYLINE
5
100
100
AcDbEntity
8
0
100
AcDbPolyline
90
4
70
1
43
0.0
10
15.106464952061902
20
56.851928934746013
10
16.7064649520619
20
56.851928934746013
10
16.7064649520619
20
81.921195534745905
10
15.106464952061902
20
81.921195534745905
0
LWPOLYLINE
5
101
100
AcDbEntity
8
0
100
AcDbPolyline
90
44
70
1
43
0.0
10
8.8930813883044113
20
0.058956649078844015
10
8.8930813883044113
20
2.997669856315841
10
-8.8930813883044113
20
2.9976698563158442
10
-8.8930813883044113
20
0.058956626744485208
10
-8.9520336226243025
20
2.5014485843799505e-06
10
-22.023862531529652
20
2.5014485871555081e-06
10
-22.082814765849534
20
0.058956626744488538
10
-22.082814765849548
20
27.978231985655732
10
-25.02152990128647
20
27.978231985655732
10
-25.080482135606353
20
28.03718612584121
10
-25.080482135606374
20
46.105125411809034
10
-25.021529901286492
20
46.164077646128916
10
-22.082814765849534
20
46.164077646128916
10
-22.082814765849534
20
63.950232799275398
10
-25.021529901286456
20
63.950232799275398
10
-25.080482135606353
20
64.009185033595287
10
-25.080482135606353
20
82.0771262254287
10
-25.02152990128647
20
82.136078459748603
10
-22.082814765849534
20
82.136078459748603
10
-22.082814765849513
20
110.05535500982583
10
-22.02386253152963
20
110.11430724414572
10
-8.9520336226242758
20
110.11430724414572
10
-8.8930813883043847
20
110.05535500982582
10
-8.8930813883043847
20
107.11663987438888
10
8.8930813883044291
20
107.11663987438888
10
8.893081388304438
20
110.05535500982582
10
8.9520336226243291
20
110.11430724414569
10
22.023862531529687
20
110.11430724414569
10
22.082814765849577
20
110.05535500982582
10
22.082814765849569
20
82.136078459748575
10
25.021529901286517
20
82.136078459748575
10
25.08048213560641
20
82.0771262254287
10
25.080482135606399
20
64.009185033595287
10
25.021529901286506
20
63.950232799275383
10
22.082814765849559
20
63.950232799275391
10
22.082814765849569
20
46.16407383439774
10
25.021529901286506
20
46.16407383439774
10
25.080482135606399
20
46.105121600077851
10
25.080482135606388
20
28.037180408244438
10
25.021529901286499
20
27.978226268058961
10
22.082814765849548
20
27.978226268058961
10
22.082814765849548
20
0.058951623847312007
10
22.023862531529659
20
-2.5014485866003966e-06
10
8.9520336226243025
20
-2.501448583824839e-06
0
LWPOLYLINE
5
102
100
AcDbEntity
8
0
100
AcDbPolyline
90
6
70
1
43
0.0
10
-14.208447452115101
20
66.268280487373389
10
-19.208447452115081
20
63.381529141425268
10
-19.208447452115102
20
57.608026449529028
10
-14.208447452115101
20
54.721275103580908
10
-9.2084474521151094
20
57.608026449529028
10
-9.2084474521151005
20
63.381529141425268
0
LWPOLYLINE
5
103
100
AcDbEntity
8
0
100
AcDbPolyline
90
6
70
1
43
0.0
10
-5.2084474521150437
20
87.630240447389525
10
-5.2084474521150614
20
81.85673775549327
10
-0.20844745211506144
20
78.969986409545143
10
4.7915525478849297
20
81.85673775549327
10
4.7915525478849386
20
87.630240447389525
10
-0.20844745211506144
20
90.516991793337638
0
LWPOLYLINE
5
104
100
AcDbEntity
8
0
100
AcDbPolyline
90
6
70
1
43
0.0
10
8.7915525478848711
20
14.884106529496663
10
8.7915525478848533
20
9.1106038376004186
10
13.791552547884853
20
6.2238524916522948
10
18.791552547884844
20
9.1106038376004186
10
18.791552547884855
20
14.884106529496661
10
13.791552547884853
20
17.770857875444776
0
LWPOLYLINE
5
105
100
AcDbEntity
8
0
100
AcDbPolyline
90
6
70
1
43
0.0
10
6.7915525478848959
20
54.1439248343912
10
1.7915525478849137
20
51.257173488443087
10
1.7915525478848959
20
45.483670796546846
10
6.7915525478848959
20
42.596919450598712
10
11.791552547884887
20
45.483670796546832
10
11.791552547884896
20
51.257173488443087
0
LWPOLYLINE
5
106
100
AcDbEntity
8
0
100
AcDbPolyline
90
6
70
1
43
0.0
10
-14.208447452115118
20
42.019569181409118
10
-19.208447452115102
20
39.132817835461005
10
-19.208447452115117
20
33.359315143564757
10
-14.208447452115118
20
30.472563797616633
10
-9.2084474521151272
20
33.359315143564757
10
-9.2084474521151183
20
39.132817835461005
0
LWPOLYLINE
5
107
100
AcDbEntity
8
0
100
AcDbPolyline
90
6
70
1
43
0.0
10
-0.20844745211512361
20
42.019569181409082
10
-5.2084474521151058
20
39.132817835460969
10
-5.2084474521151236
20
33.359315143564729
10
-0.20844745211512361
20
30.472563797616601
10
4.7915525478848675
20
33.359315143564729
10
4.7915525478848764
20
39.132817835460969
0
LWPOLYLINE
5
108
100
AcDbEntity
8
0
100
AcDbPolyline
90
6
70
1
43
0.0
10
-14.208447452115065
20
90.516991793337652
10
-19.208447452115045
20
87.630240447389539
10
-19.208447452115067
20
81.856737755493299
10
-14.208447452115065
20
78.969986409545172
10
-9.2084474521150739
20
81.856737755493299
10
-9.208447452115065
20
87.630240447389539
0
LWPOLYLINE
5
109
100
AcDbEntity
8
0
100
AcDbPolyline
90
6
70
1
43
0.0
10
-12.20844745211509
20
51.257173488443122
10
-12.208447452115108
20
45.483670796546882
10
-7.2084474521151076
20
42.596919450598747
10
-2.2084474521151165
20
45.483670796546882
10
-2.2084474521151076
20
51.257173488443122
10
-7.2084474521151076
20
54.143924834391235
0
LWPOLYLINE
5
110
100
AcDbEntity
8
0
100
AcDbPolyline
90
6
70
1
43
0.0
10
-7.208447452115081
20
78.392636140355506
10
-12.208447452115063
20
75.505884794407393
10
-12.208447452115081
20
69.732382102511139
10
-7.208447452115081
20
66.845630756563025
10
-2.2084474521150899
20
69.732382102511139
10
-2.208447452115081
20
75.505884794407393
0
LWPOLYLINE
5
111
100
AcDbEntity
8
0
100
AcDbPolyline
90
6
70
1
43
0.0
10
6.7915525478849492
20
91.094342062527261
10
11.79155254788494
20
93.981093408475388
10
11.791552547884949
20
99.754596100371629
10
6.7915525478849492
20
102.64134744631974
10
1.791552547884967
20
99.754596100371629
10
1.7915525478849492
20
93.981093408475388
0
LWPOLYLINE
5
112
100
AcDbEntity
8
0
100
AcDbPolyline
90
6
70
1
43
0.0
10
8.7915525478848977
20
39.132817835460934
10
8.7915525478848799
20
33.359315143564686
10
13.79155254788488
20
30.472563797616566
10
18.791552547884869
20
33.359315143564686
10
18.79155254788488
20
39.132817835460934
10
13.79155254788488
20
42.019569181409047
0
LWPOLYLINE
5
113
100
AcDbEntity
8
0
100
AcDbPolyline
90
6
70
1
43
0.0
10
-5.2084474521151325
20
14.884106529496698
10
-5.2084474521151503
20
9.1106038376004523
10
-0.20844745211515026
20
6.2238524916523286
10
4.7915525478848409
20
9.1106038376004523
10
4.7915525478848497
20
14.884106529496696
10
-0.20844745211515026
20
17.770857875444811
0
LWPOLYLINE
5
114
100
AcDbEntity
8
0
100
AcDbPolyline
90
6
70
1
43
0.0
10
-14.208447452115154
20
17.770857875444847
10
-19.208447452115138
20
14.884106529496732
10
-19.208447452115152
20
9.1106038376004879
10
-14.208447452115154
20
6.2238524916523632
10
-9.2084474521151627
20
9.1106038376004879
10
-9.2084474521151538
20
14.88410652949673
0
LWPOLYLINE
5
115
100
AcDbEntity
8
0
100
AcDbPolyline
90
6
70
1
43
0.0
10
-7.2084474521150543
20
91.094342062527289
10
-2.2084474521150632
20
93.981093408475417
10
-2.2084474521150543
20
99.754596100371657
10
-7.2084474521150543
20
102.64134744631977
10
-12.208447452115037
20
99.754596100371657
10
-12.208447452115054
20
93.981093408475417
0
LWPOLYLINE
5
116
100
AcDbEntity
8
0
100
AcDbPolyline
90
6
70
1
43
0.0
10
-5.208447452115097
20
57.608026449528992
10
-0.20844745211509697
20
54.721275103580865
10
4.7915525478848942
20
57.608026449528992
10
4.791552547884903
20
63.381529141425233
10
-0.20844745211509697
20
66.268280487373346
10
-5.2084474521150792
20
63.381529141425233
0
LWPOLYLINE
5
117
100
AcDbEntity
8
0
100
AcDbPolyline
90
6
70
1
43
0.0
10
1.7915525478849403
20
75.505884794407365
10
1.7915525478849226
20
69.732382102511124
10
6.7915525478849226
20
66.845630756562997
10
11.791552547884914
20
69.732382102511124
10
11.791552547884923
20
75.505884794407365
10
6.7915525478849226
20
78.392636140355478
0
ENDSEC
0
SECTION
2
OBJECTS
0
DICTIONARY
5
C
100
AcDbDictionary
3
ACAD_GROUP
350
D
3
ACAD_MLINESTYLE
350
17
0
DICTIONARY
5
D
100
AcDbDictionary
0
DICTIONARY
5
1A
330
C
100
AcDbDictionary
0
DICTIONARY
5
17
100
AcDbDictionary
0
ENDSEC
0
EOF
