0
SECTION
2
HEADER
9
$INSUNITS
70
4
9
$ACADVER
1
AC1014
9
$HANDSEED
5
FFFF
0
ENDSEC
0
SECTION
2
TABLES
0
TABLE
2
VPORT
5
8
100
AcDbSymbolTable
0
ENDTAB
0
TABLE
2
LTYPE
5
5
100
AcDbSymbolTable
0
LTYPE
5
14
100
AcDbSymbolTableRecord
100
AcDbLinetypeTableRecord
2
BYBLOCK
70
0
0
LTYPE
5
15
100
AcDbSymbolTableRecord
100
AcDbLinetypeTableRecord
2
BYLAYER
70
0
0
ENDTAB
0
TABLE
2
LAYER
5
2
100
AcDbSymbolTable
70
2
0
LAYER
5
50
100
AcDbSymbolTableRecord
100
AcDbLayerTableRecord
2
0
70
0
6
CONTINUOUS
0
ENDTAB
0
TABLE
2
STYLE
5
3
100
AcDbSymbolTable
70
1
0
STYLE
5
11
100
AcDbSymbolTableRecord
100
AcDbTextStyleTableRecord
2
STANDARD
70
0
0
ENDTAB
0
TABLE
2
VIEW
5
6
100
AcDbSymbolTable
70
0
0
ENDTAB
0
TABLE
2
UCS
5
7
100
AcDbSymbolTable
70
0
0
ENDTAB
0
TABLE
2
APPID
5
9
100
AcDbSymbolTable
70
2
0
APPID
5
12
100
AcDbSymbolTableRecord
100
AcDbRegAppTableRecord
2
ACAD
70
0
0
ENDTAB
0
TABLE
2
DIMSTYLE
5
A
100
AcDbSymbolTable
70
1
0
ENDTAB
0
TABLE
2
BLOCK_RECORD
5
1
100
AcDbSymbolTable
70
1
0
BLOCK_RECORD
5
1F
100
AcDbSymbolTableRecord
100
AcDbBlockTableRecord
2
*MODEL_SPACE
0
BLOCK_RECORD
5
1B
100
AcDbSymbolTableRecord
100
AcDbBlockTableRecord
2
*PAPER_SPACE
0
ENDTAB
0
ENDSEC
0
SECTION
2
BLOCKS
0
BLOCK
5
20
100
AcDbEntity
100
AcDbBlockBegin
2
*MODEL_SPACE
0
ENDBLK
5
21
100
AcDbEntity
100
AcDbBlockEnd
0
BLOCK
5
1C
100
AcDbEntity
100
AcDbBlockBegin
2
*PAPER_SPACE
0
ENDBLK
5
1D
100
AcDbEntity
100
AcDbBlockEnd
0
ENDSEC
0
SECTION
2
ENTITIES
0
LWPOLYLINE
5
100
100
AcDbEntity
8
0
100
AcDbPolyline
90
44
70
1
43
0.0
10
-8.9026129341370552
20
-22.106464952061906
10
-8.9026129341370552
20
-25.048320259921244
10
-8.9616206835011436
20
-25.107343272541769
10
-27.048915346443088
20
-25.107343272541769
10
-27.107930727435395
20
-25.048320259921244
10
-27.107930727435395
20
-22.106464952061906
10
-52.056236591682335
20
-22.106464952061913
10
-52.115253880581697
20
-22.047441939441388
10
-52.115253880581697
20
-9.1026588966491673
10
-55.057114912162191
20
-9.1026588966491673
10
-55.116132201061561
20
-9.0436435156568606
10
-55.116132201061561
20
9.0436435156568606
10
-55.057114912162191
20
9.1026588966491673
10
-52.115253880581697
20
9.1026588966491673
10
-52.115253880581697
20
22.047449571069603
10
-52.056236591682335
20
22.106464952061909
10
-27.107934543249502
20
22.106464952061909
10
-27.107934543249502
20
25.048327891549466
10
-27.048919162257192
20
25.107343272541772
10
-8.9616244993152527
20
25.107343272541772
10
-8.9026091183229461
20
25.048327891549466
10
-8.9026091183229461
20
22.106464952061909
10
8.9026014866947545
20
22.106464952061909
10
8.9026014866947545
20
25.048327891549466
10
8.9616168676870611
20
25.107343272541772
10
27.048911530628999
20
25.107343272541772
10
27.107926911621306
20
25.048327891549466
10
27.107926911621306
20
22.106464952061909
10
52.056238499589405
20
22.106464952061909
10
52.115253880581712
20
22.047449571069603
10
52.115253880581712
20
9.1026588966491673
10
55.057116820069261
20
9.1026588966491691
10
55.116132201061568
20
9.0436435156568606
10
55.116132201061568
20
-9.0436435156568606
10
55.057116820069261
20
-9.1026588966491673
10
52.115253880581712
20
-9.1026588966491673
10
52.115253880581712
20
-22.047441939441377
10
52.056238499589405
20
-22.106464952061906
10
27.107926911621306
20
-22.106464952061906
10
27.107926911621306
20
-25.048320259921244
10
27.048911530628999
20
-25.107343272541769
10
8.9616168676870611
20
-25.107343272541769
10
8.9026014866947545
20
-25.048320259921244
10
8.9026014866947545
20
-22.106464952061906
0
LINE
5
101
100
AcDbEntity
8
0
100
AcDbLine
10
-37.278136121229039
20
22.106464952061906
30
0
11
-37.278136121229046
21
17.222360263297098
31
0
0
LINE
5
102
100
AcDbEntity
8
0
100
AcDbLine
10
-37.278136121229046
20
17.222360263297098
30
0
11
-44.035015663437349
21
17.222360263297098
31
0
0
LINE
5
103
100
AcDbEntity
8
0
100
AcDbLine
10
-44.035015663437349
20
17.222360263297098
30
0
11
-44.035015663437349
21
22.106464952061909
31
0
0
LWPOLYLINE
5
104
100
AcDbEntity
8
0
100
AcDbPolyline
90
4
70
1
43
0.0
10
-29.652777313994868
20
14.379449029907532
10
-43.50886046867322
20
14.379449029907532
10
-43.50886046867322
20
17.202495301115761
10
-29.652777313994868
20
17.202495301115761
0
LWPOLYLINE
5
105
100
AcDbEntity
8
0
100
AcDbPolyline
90
4
70
1
43
0.0
10
-25.113572478103144
20
10.850637189726161
10
-43.50886046867322
20
10.850637189726161
10
-43.50886046867322
20
13.673683460934388
10
-25.113572478103144
20
13.673683460934388
0
LWPOLYLINE
5
106
100
AcDbEntity
8
0
100
AcDbPolyline
90
4
70
1
43
0.0
10
-33.976944684791071
20
7.3218333518869683
10
-43.50886046867322
20
7.3218333518869683
10
-43.50886046867322
20
10.144879623095196
10
-33.976944684791071
20
10.144879623095196
0
LWPOLYLINE
5
107
100
AcDbEntity
8
0
100
AcDbPolyline
90
4
70
1
43
0.0
10
36.783969189196199
20
-6.1891961616448787
10
-37.517249797315031
20
-6.1891961616448787
10
-37.517249797315031
20
4.3972023480666333
10
36.783969189196199
20
4.3972023480666333
0
LINE
5
108
100
AcDbEntity
8
0
100
AcDbLine
10
-55.116132201061561
20
0
30
0
11
55.116132201061568
21
0
31
0
0
LINE
5
109
100
AcDbEntity
8
0
100
AcDbLine
10
-3.8158140913679972e-06
20
22.106464952061909
30
0
11
0
21
0
31
0
0
LINE
5
110
100
AcDbEntity
8
0
100
AcDbLine
10
0
20
0
30
0
11
-5.7237211503746721e-06
21
-22.106464952061906
31
0
0
ENDSEC
0
SECTION
2
OBJECTS
0
DICTIONARY
5
C
100
AcDbDictionary
3
ACAD_GROUP
350
D
3
ACAD_MLINESTYLE
350
17
0
DICTIONARY
5
D
100
AcDbDictionary
0
DICTIONARY
5
1A
330
C
100
AcDbDictionary
0
DICTIONARY
5
17
100
AcDbDictionary
0
ENDSEC
0
EOF
