0
SECTION
2
HEADER
9
$INSUNITS
70
4
9
$ACADVER
1
AC1014
9
$HANDSEED
5
FFFF
0
ENDSEC
0
SECTION
2
TABLES
0
TABLE
2
VPORT
5
8
100
AcDbSymbolTable
0
ENDTAB
0
TABLE
2
LTYPE
5
5
100
AcDbSymbolTable
0
LTYPE
5
14
100
AcDbSymbolTableRecord
100
AcDbLinetypeTableRecord
2
BYBLOCK
70
0
0
LTYPE
5
15
100
AcDbSymbolTableRecord
100
AcDbLinetypeTableRecord
2
BYLAYER
70
0
0
ENDTAB
0
TABLE
2
LAYER
5
2
100
AcDbSymbolTable
70
2
0
LAYER
5
50
100
AcDbSymbolTableRecord
100
AcDbLayerTableRecord
2
0
70
0
6
CONTINUOUS
0
ENDTAB
0
TABLE
2
STYLE
5
3
100
AcDbSymbolTable
70
1
0
STYLE
5
11
100
AcDbSymbolTableRecord
100
AcDbTextStyleTableRecord
2
STANDARD
70
0
0
ENDTAB
0
TABLE
2
VIEW
5
6
100
AcDbSymbolTable
70
0
0
ENDTAB
0
TABLE
2
UCS
5
7
100
AcDbSymbolTable
70
0
0
ENDTAB
0
TABLE
2
APPID
5
9
100
AcDbSymbolTable
70
2
0
APPID
5
12
100
AcDbSymbolTableRecord
100
AcDbRegAppTableRecord
2
ACAD
70
0
0
ENDTAB
0
TABLE
2
DIMSTYLE
5
A
100
AcDbSymbolTable
70
1
0
ENDTAB
0
TABLE
2
BLOCK_RECORD
5
1
100
AcDbSymbolTable
70
1
0
BLOCK_RECORD
5
1F
100
AcDbSymbolTableRecord
100
AcDbBlockTableRecord
2
*MODEL_SPACE
0
BLOCK_RECORD
5
1B
100
AcDbSymbolTableRecord
100
AcDbBlockTableRecord
2
*PAPER_SPACE
0
ENDTAB
0
ENDSEC
0
SECTION
2
BLOCKS
0
BLOCK
5
20
100
AcDbEntity
100
AcDbBlockBegin
2
*MODEL_SPACE
0
ENDBLK
5
21
100
AcDbEntity
100
AcDbBlockEnd
0
BLOCK
5
1C
100
AcDbEntity
100
AcDbBlockBegin
2
*PAPER_SPACE
0
ENDBLK
5
1D
100
AcDbEntity
100
AcDbBlockEnd
0
ENDSEC
0
SECTION
2
ENTITIES
0
LWPOLYLINE
5
100
100
AcDbEntity
8
0
100
AcDbPolyline
90
56
70
1
43
0.0
10
-26.907871409573918
20
3.0008783204798561
10
-26.907871409573918
20
0.059015380992306632
10
-26.966888698473284
20
0
10
-55.057110351071898
20
0
10
-55.116127621339359
20
0.059015380992324395
10
-55.116127621339359
20
28.149237778867136
10
-55.057110351071906
20
28.208253159859442
10
-52.115249349302452
20
28.208253159859442
10
-52.115249349302452
20
46.013467580691241
10
-55.057110351071898
20
46.013467580691241
10
-55.116127621339359
20
46.072482961683548
10
-55.116127621339359
20
64.159777624625491
10
-55.057110351071906
20
64.218796821431908
10
-52.115249349302452
20
64.218796821431908
10
-52.115249349302452
20
82.0240074264496
10
-55.057110351071898
20
82.0240074264496
10
-55.116127621339359
20
82.083024715348955
10
-55.116127621339359
20
110.17324636794757
10
-55.057110351071906
20
110.23226363821504
10
-26.966888698473284
20
110.23226363821504
10
-26.907871409573918
20
110.17324636794757
10
-26.907871409573929
20
107.23138536617813
10
-9.1026608045562263
20
107.23138536617813
10
-9.1026608045562263
20
110.17324636794757
10
-9.0436416077498105
20
110.23226363821504
10
9.0436530551921379
20
110.23226363821504
10
9.1026684361844445
20
110.17324636794757
10
9.1026684361844268
20
107.23138536617813
10
26.907882857016236
20
107.23138536617813
10
26.907882857016236
20
110.17324636794757
10
26.966898238008561
20
110.23226363821504
10
55.057120635883372
20
110.23226363821504
10
55.116120753619242
20
110.17324636794757
10
55.116120753619242
20
82.083020899534844
10
55.057105372626935
20
82.024003610635503
10
52.115242433139386
20
82.024003610635503
10
52.115242433139386
20
64.218793005617798
10
55.057105372626935
20
64.218793005617798
10
55.116120753619242
20
64.159777624625491
10
55.116120753619242
20
46.072482961683548
10
55.057105372626935
20
46.013467580691241
10
52.115242433139386
20
46.013467580691255
10
52.115242433139386
20
28.208253159859442
10
55.057105372626935
20
28.208253159859442
10
55.116120753619242
20
28.149237778867118
10
55.116120753619242
20
0.059015380992306632
10
55.057105372626935
20
0
10
26.966882974752124
20
0
10
26.907867593759818
20
0.059015380992324395
10
26.907867593759818
20
3.0008783204798739
10
9.1026608045562085
20
3.0008783204798561
10
9.1026608045562085
20
0.059015380992306632
10
9.0436454235639019
20
0
10
-9.0436454235639196
20
0
10
-9.1026608045562263
20
0.059015380992324395
10
-9.1026608045562263
20
3.0008783204798739
0
LINE
5
101
100
AcDbEntity
8
0
100
AcDbLine
10
-44.068514695490336
20
-0.036631815435530513
30
0
11
-44.068514695490336
21
6.7766034853318935
31
0
0
LINE
5
102
100
AcDbEntity
8
0
100
AcDbLine
10
-44.068514695490336
20
6.7766034853318935
30
0
11
-37.255279394722919
21
6.7766034853318935
31
0
0
LINE
5
103
100
AcDbEntity
8
0
100
AcDbLine
10
-37.255279394722919
20
6.7766034853318935
30
0
11
-37.255279394722919
21
-0.036631815435530513
31
0
0
SPLINE
5
104
100
AcDbEntity
8
0
100
AcDbSpline
70
4
71
3
72
8
73
4
74
0
42
0.000000001
43
0.0000000001
44
0.0000000001
40
0
40
0
40
0
40
0
40
1
40
1
40
1
40
1
41
1
41
1
41
1
41
1
10
4.9133863338841266
20
76.552721388891101
30
0
10
4.3237807944757378
20
74.911839094175235
30
0
10
-4.323774194945198
20
74.911839094175235
30
0
10
-4.9133797343536045
20
76.552721388891101
30
0
0
SPLINE
5
105
100
AcDbEntity
8
0
100
AcDbSpline
70
4
71
3
72
8
73
4
74
0
42
0.000000001
43
0.0000000001
44
0.0000000001
40
0
40
0
40
0
40
0
40
1
40
1
40
1
40
1
41
1
41
1
41
1
41
1
10
-4.9133797343536045
20
76.552721388891101
30
0
10
-5.5029852737620022
20
78.193603683606938
30
0
10
-1.1792089587344989
20
90.226733877330432
30
0
10
4.4794482079169029e-06
20
90.226733877330432
30
0
0
SPLINE
5
106
100
AcDbEntity
8
0
100
AcDbSpline
70
4
71
3
72
8
73
4
74
0
42
0.000000001
43
0.0000000001
44
0.0000000001
40
0
40
0
40
0
40
0
40
1
40
1
40
1
40
1
41
1
41
1
41
1
41
1
10
4.4794482079169029e-06
20
90.226733877330432
30
0
10
1.1792155582650121
20
90.226733877330432
30
0
10
5.5029942326584269
20
78.193603683606938
30
0
10
4.9133863338841266
20
76.552721388891101
30
0
0
LWPOLYLINE
5
107
100
AcDbEntity
8
0
100
AcDbPolyline
90
4
70
1
43
0.0
10
16.66691118374926
20
72.610955340924036
10
-11.879214705075203
20
72.610955340924036
10
-11.879214705075203
20
75.434001612132263
10
16.66691118374926
20
75.434001612132263
0
LWPOLYLINE
5
108
100
AcDbEntity
8
0
100
AcDbPolyline
90
4
70
1
43
0.0
10
-33.666603259789184
20
15.207026911282497
10
-47.522686414467529
20
15.207026911282497
10
-47.522686414467529
20
18.030073182490725
10
-33.666603259789184
20
18.030073182490725
0
LWPOLYLINE
5
109
100
AcDbEntity
8
0
100
AcDbPolyline
90
4
70
1
43
0.0
10
-28.501586608635616
20
11.678215071101121
10
-47.522686414467529
20
11.678215071101121
10
-47.522686414467529
20
14.501261342309348
10
-28.501586608635616
20
14.501261342309348
0
LWPOLYLINE
5
110
100
AcDbEntity
8
0
100
AcDbPolyline
90
4
70
1
43
0.0
10
-36.890774659859375
20
8.1494152344330217
10
-47.522686414467529
20
8.1494152344330217
10
-47.522686414467529
20
10.972461505641249
10
-36.890774659859375
20
10.972461505641249
0
LWPOLYLINE
5
111
100
AcDbEntity
8
0
100
AcDbPolyline
90
4
70
1
43
0.0
10
20.349660608143907
20
51.474450943908892
10
-27.868079450755019
20
51.474450943908892
10
-27.868079450755019
20
62.060849453620399
10
20.349660608143907
20
62.060849453620399
0
LINE
5
112
100
AcDbEntity
8
0
100
AcDbLine
10
5.7237211592564563e-06
20
110.23226363821504
30
0
11
0
21
0
31
0
0
ENDSEC
0
SECTION
2
OBJECTS
0
DICTIONARY
5
C
100
AcDbDictionary
3
ACAD_GROUP
350
D
3
ACAD_MLINESTYLE
350
17
0
DICTIONARY
5
D
100
AcDbDictionary
0
DICTIONARY
5
1A
330
C
100
AcDbDictionary
0
DICTIONARY
5
17
100
AcDbDictionary
0
ENDSEC
0
EOF
